999
DXF file: one_xl_super_single_bowl_s_uz.dxf
999
Pro/ENGINEER 2011490 by Parametric Technology Corporation
  0
SECTION
  2
HEADER
  9
$ACADVER
  1
AC1021
  9
$DWGCODEPAGE
  3
ANSI_1252
  9
$EXTMAX
 10
1189.0
 20
841.0
 30
0.0
  9
$EXTMIN
 10
0.0
 20
0.0
 30
0.0
  9
$LIMMIN
 10
0.0
 20
0.0
  9
$LIMMAX
 10
1189.0
 20
841.0
  9
$VIEWCTR
 10
594.5
 20
420.5
  9
$VIEWSIZE
 40
841.0
  9
$CLAYER
  8
0
  9
$LTSCALE
 40
65.395
  9
$CELTYPE
  6
BYLAYER
  9
$DIMSCALE
 40
1.0
  9
$DIMASZ
 40
3.0
  9
$DIMEXO
 40
7.43125
  9
$DIMDLI
 40
45.182
  9
$DIMEXE
 40
21.402
  9
$DIMCEN
 40
10.701
  9
$DIMLFAC
 40
1.0
  9
$DIMBLK
  1
_FILLED
  9
$DIMTXT
 40
2.5
  9
$DIMTOL
 70
1
  9
$DIMLIM
 70
0
  9
$DIMTFAC
 40
1.0
  9
$DIMTP
 40
0.01
  9
$DIMTM
 40
0.01
  9
$PDMODE
 70
3
  9
$PDSIZE
 40
0.05
  9
$HANDSEED
  5
218
  9
$TILEMODE
 70
1
  9
$MEASUREMENT
 70
1
  9
$INSUNITS
 70
4
  0
ENDSEC
  0
SECTION
  2
CLASSES
  0
CLASS
  1
ACDBDICTIONARYWDFLT
  2
AcDbDictionaryWithDefault
  3
AutoCAD 2000
 90
0
 91
1
280
0
281
0
  0
CLASS
  1
ACDBPLACEHOLDER
  2
AcDbPlaceHolder
  3
AutoCAD 2000
 90
0
 91
1
280
0
281
0
  0
CLASS
  1
LAYOUT
  2
AcDbLayout
  3
AutoCAD 2000
 90
0
 91
0
280
0
281
0
  0
ENDSEC
  0
SECTION
  2
TABLES
  0
TABLE
  2
VPORT
  5
8
100
AcDbSymbolTable
 70
2
  0
VPORT
  5
1F4
100
AcDbSymbolTableRecord
100
AcDbViewportTableRecord
  2
*ACTIVE
 70
0
 10
0.0
 20
0.0
 11
1.0
 21
1.0
 12
594.5
 22
420.5
 13
0.0
 23
0.0
 14
1.0
 24
1.0
 15
0.0
 25
0.0
 16
0.0
 26
0.0
 36
1.0
 17
0.0
 27
0.0
 37
0.0
 40
841.0
 41
1.4137931034
 42
50.0
 43
0.0
 44
0.0
 50
0.0
 51
0.0
 71
0
 72
100
 73
1
 74
1
 75
0
 76
0
 77
0
 78
0
  0
ENDTAB
  0
TABLE
  2
LTYPE
  5
5
100
AcDbSymbolTable
 70
6
  0
LTYPE
  5
14
100
AcDbSymbolTableRecord
100
AcDbLinetypeTableRecord
  2
BYBLOCK
 70
0
  3

 72
65
 73
0
 40
0.0
  0
LTYPE
  5
15
100
AcDbSymbolTableRecord
100
AcDbLinetypeTableRecord
  2
BYLAYER
 70
0
  3

 72
65
 73
0
 40
0.0
  0
LTYPE
  5
16
100
AcDbSymbolTableRecord
100
AcDbLinetypeTableRecord
  2
CONTINUOUS
 70
64
  3
Solid line
 72
65
 73
0
 40
0.0
  0
LTYPE
  5
1F5
100
AcDbSymbolTableRecord
100
AcDbLinetypeTableRecord
  2
CENTER
 70
64
  3
____ _ ____ _ ____ _ ____ _ ____ _ ____ _ ____
 72
65
 73
4
 40
0.6
 49
0.375
 74
0
 49
-0.075
 74
0
 49
0.075
 74
0
 49
-0.075
 74
0
  0
LTYPE
  5
1F6
100
AcDbSymbolTableRecord
100
AcDbLinetypeTableRecord
  2
HIDDEN
 70
64
  3
- - - - - - - - - - - - - - - - - - - -
 72
65
 73
2
 40
0.2
 49
0.1
 74
0
 49
-0.1
 74
0
  0
LTYPE
  5
1F7
100
AcDbSymbolTableRecord
100
AcDbLinetypeTableRecord
  2
PHANTOM
 70
64
  3
_____ _ _ _____ _ _ _____ _ _ _____
 72
65
 73
6
 40
0.8
 49
0.45
 74
0
 49
-0.05
 74
0
 49
0.1
 74
0
 49
-0.05
 74
0
 49
0.1
 74
0
 49
-0.05
 74
0
  0
LTYPE
  5
1F8
100
AcDbSymbolTableRecord
100
AcDbLinetypeTableRecord
  2
DOT
 70
64
  3
. . . . . . . . . . . . . . . . . . . .
 72
65
 73
2
 40
0.2
 49
0.1
 74
0
 49
-0.1
 74
0
  0
LTYPE
  5
1F9
100
AcDbSymbolTableRecord
100
AcDbLinetypeTableRecord
  2
DASHED
 70
64
  3
- - - - - - - - - - - - - - - - - - - -
 72
65
 73
2
 40
0.2
 49
0.1
 74
0
 49
-0.1
 74
0
  0
ENDTAB
  0
TABLE
  2
LAYER
  5
2
100
AcDbSymbolTable
 70
36
  0
LAYER
  5
10
100
AcDbSymbolTableRecord
100
AcDbLayerTableRecord
  2
0
 70
0
 62
7
  6
CONTINUOUS
370
-3
390
F
  0
LAYER
  5
1FA
100
AcDbSymbolTableRecord
100
AcDbLayerTableRecord
  2
DEFAULT_1
 70
0
 62
7
  6
CENTER
370
-3
390
F
  0
LAYER
  5
1FB
100
AcDbSymbolTableRecord
100
AcDbLayerTableRecord
  2
DEFAULT_2
 70
0
 62
8
  6
HIDDEN
370
-3
390
F
  0
LAYER
  5
1FC
100
AcDbSymbolTableRecord
100
AcDbLayerTableRecord
  2
DEFAULT_3
 70
0
 62
7
  6
PHANTOM
370
-3
390
F
  0
LAYER
  5
1FD
100
AcDbSymbolTableRecord
100
AcDbLayerTableRecord
  2
ACHSEN
 70
0
 62
7
  6
CONTINUOUS
370
-3
390
F
  0
LAYER
  5
1FE
100
AcDbSymbolTableRecord
100
AcDbLayerTableRecord
  2
EBENEN
 70
0
 62
7
  6
CONTINUOUS
370
-3
390
F
  0
LAYER
  5
1FF
100
AcDbSymbolTableRecord
100
AcDbLayerTableRecord
  2
FLAECHEN
 70
0
 62
7
  6
CONTINUOUS
370
-3
390
F
  0
LAYER
  5
200
100
AcDbSymbolTableRecord
100
AcDbLayerTableRecord
  2
KONTUR
 70
0
 62
7
  6
CONTINUOUS
370
-3
390
F
  0
LAYER
  5
201
100
AcDbSymbolTableRecord
100
AcDbLayerTableRecord
  2
KURVEN
 70
0
 62
7
  6
CONTINUOUS
370
-3
390
F
  0
LAYER
  5
202
100
AcDbSymbolTableRecord
100
AcDbLayerTableRecord
  2
PUNKTE
 70
0
 62
7
  6
CONTINUOUS
370
-3
390
F
  0
LAYER
  5
203
100
AcDbSymbolTableRecord
100
AcDbLayerTableRecord
  2
S-ACHSEN
 70
0
 62
7
  6
CONTINUOUS
370
-3
390
F
  0
LAYER
  5
204
100
AcDbSymbolTableRecord
100
AcDbLayerTableRecord
  2
S-EBENEN
 70
0
 62
7
  6
CONTINUOUS
370
-3
390
F
  0
LAYER
  5
205
100
AcDbSymbolTableRecord
100
AcDbLayerTableRecord
  2
S-KOORDSYS
 70
0
 62
7
  6
CONTINUOUS
370
-3
390
F
  0
ENDTAB
  0
TABLE
  2
STYLE
  5
3
100
AcDbSymbolTable
 70
1
  0
STYLE
  5
11
100
AcDbSymbolTableRecord
100
AcDbTextStyleTableRecord
  2
STANDARD
 70
0
 40
0.0
 41
1.0
 50
0.0
 71
0
 42
0.2
  3
arial.ttf
  4

  0
STYLE
  5
206
100
AcDbSymbolTableRecord
100
AcDbTextStyleTableRecord
  2
TEXTSTYLE_1
 70
0
 40
0.0
 41
0.8
 50
0.0
 71
0
 42
0.2
  3
gdt
  4

  0
ENDTAB
  0
TABLE
  2
VIEW
  5
6
100
AcDbSymbolTable
 70
0
  0
ENDTAB
  0
TABLE
  2
UCS
  5
7
100
AcDbSymbolTable
 70
0
  0
ENDTAB
  0
TABLE
  2
APPID
  5
9
100
AcDbSymbolTable
 70
1
  0
APPID
  5
207
100
AcDbSymbolTableRecord
100
AcDbRegAppTableRecord
  2
ACAD
 70
0
  0
ENDTAB
  0
TABLE
  2
BLOCK_RECORD
  5
1
100
AcDbSymbolTable
 70
0
  0
BLOCK_RECORD
  5
208
100
AcDbSymbolTableRecord
100
AcDbBlockTableRecord
  2
*Model_Space
  0
BLOCK_RECORD
  5
209
100
AcDbSymbolTableRecord
100
AcDbBlockTableRecord
  2
*Paper_Space
  0
ENDTAB
  0
TABLE
  2
DIMSTYLE
  5
A
100
AcDbSymbolTable
 70
1
100
AcDbDimStyleTable
 71
0
  0
DIMSTYLE
105
20A
100
AcDbSymbolTableRecord
100
AcDbDimStyleTableRecord
  2
STANDARD
 70
0
  3

  4

 40
1.0
 41
3.0
 42
0.0625
 43
0.38
 44
0.18
 45
0.0
 46
0.0
 47
0.01
 48
0.01
140
2.5
141
0.09
142
0.0
143
25.4
144
1.0
145
0.0
146
1.0
147
0.09
 71
1.0
 72
0.0
 73
0
 74
0
 75
0
 76
0
 77
1
 78
8
170
0
171
2
172
0
173
0
174
0
175
0
176
0
177
0
178
5
270
2
271
2
272
2
273
2
274
2
275
0
280
0
281
0
282
0
283
1
284
8
285
0
286
0
287
3
288
0
340
11
  0
ENDTAB
  0
ENDSEC
  0
SECTION
  2
BLOCKS
  0
BLOCK
  5
20
100
AcDbEntity
  8
0
100
AcDbBlockBegin
  2
*Model_Space
 70
0
 10
0.0
 20
0.0
 30
0.0
  3
*Model_Space
  1

  0
ENDBLK
  5
21
100
AcDbEntity
  8
0
100
AcDbBlockEnd
  0
BLOCK
  5
1C
100
AcDbEntity
  8
0
100
AcDbBlockBegin
  2
*Paper_Space
 70
0
 10
0.0
 20
0.0
 30
0.0
  3
*Paper_Space
  1

  0
ENDBLK
  5
1D
100
AcDbEntity
  8
0
100
AcDbBlockEnd
  0
ENDSEC
  0
SECTION
  2
ENTITIES
  0
LINE
  5
20B
100
AcDbEntity
  8
0
100
AcDbLine
 62
7
  6
CONTINUOUS
 10
137.3565485864
 20
228.9601093796
 11
137.3565485864
 21
491.6453088118
  0
LINE
  5
20C
100
AcDbEntity
  8
0
100
AcDbLine
 62
7
  6
CONTINUOUS
 10
626.6198233204
 20
485.499999945
 11
776.4154390961
 21
485.5
  0
LINE
  5
20D
100
AcDbEntity
  8
0
100
AcDbLine
 62
7
  6
CONTINUOUS
 10
222.2976580766
 20
555.5
 11
456.3934825005
 21
555.5
  0
LINE
  5
20E
100
AcDbEntity
  8
0
100
AcDbLine
 62
7
  6
CONTINUOUS
 10
861.3565485864
 20
421.6453088118
 11
861.3565485864
 21
228.9601093796
  0
ARC
  5
20F
100
AcDbEntity
  8
0
100
AcDbCircle
 62
7
  6
CONTINUOUS
 10
499.3565486109
 20
3543.527192841
 40
3458.0271918423
100
AcDbArc
 50
267.2516687146
 51
272.7483312748
  0
SPLINE
  5
210
100
AcDbEntity
  8
0
100
AcDbSpline
 62
7
  6
CONTINUOUS
 70
0
 71
3
 72
13
 73
9
 74
0
 42
0.0000001
 43
0.0000001
 44
0.0000000001
 40
0.0
 40
0.0
 40
0.0
 40
0.0
 40
0.1251073403
 40
0.2502137143
 40
0.4999989361
 40
0.7497854185
 40
0.8748921513
 40
1.0
 40
1.0
 40
1.0
 40
1.0
 10
546.2297064472
 20
526.0763423928
 30
0.0
 10
548.5382338368
 20
522.9449592086
 30
0.0
 10
553.5275605978
 20
516.9459846162
 30
0.0
 10
564.8175455501
 20
506.2150979447
 30
0.0
 10
581.1753906794
 20
495.3894878489
 30
0.0
 10
599.601855519
 20
488.6650859126
 30
0.0
 10
614.9401882723
 20
485.9544683719
 30
0.0
 10
622.7294528533
 20
485.499999945
 30
0.0
 10
626.6198233204
 20
485.499999945
 30
0.0
  0
SPLINE
  5
211
100
AcDbEntity
  8
0
100
AcDbSpline
 62
7
  6
CONTINUOUS
 70
0
 71
3
 72
19
 73
15
 74
0
 42
0.0000001
 43
0.0000001
 44
0.0000000001
 40
0.0
 40
0.0
 40
0.0
 40
0.0
 40
0.1250596259
 40
0.2500945664
 40
0.3750772789
 40
0.4999491021
 40
0.5624551441
 40
0.6249510396
 40
0.687441593
 40
0.7499344754
 40
0.8124360053
 40
0.8749483702
 40
0.9374700864
 40
1.0
 40
1.0
 40
1.0
 40
1.0
 10
776.4154390961
 20
485.5
 30
0.0
 10
781.4656171983
 20
485.5017987992
 30
0.0
 10
791.5702022867
 20
485.1639658476
 30
0.0
 10
806.6314575802
 20
483.3256263678
 30
0.0
 10
821.3710884416
 20
479.673810092
 30
0.0
 10
833.0017737351
 20
474.5273269133
 30
0.0
 10
841.3508021892
 20
468.8112787389
 30
0.0
 10
846.9590298156
 20
463.6832948061
 30
0.0
 10
851.7234442905
 20
457.7603375261
 30
0.0
 10
855.5157765372
 20
451.173629067
 30
0.0
 10
858.3041783406
 20
444.1075501288
 30
0.0
 10
860.1484872095
 20
436.7431590174
 30
0.0
 10
861.1565323458
 20
429.2235248247
 30
0.0
 10
861.3591619228
 20
424.1704007366
 30
0.0
 10
861.3565485864
 20
421.6453088118
 30
0.0
  0
SPLINE
  5
212
100
AcDbEntity
  8
0
100
AcDbSpline
 62
7
  6
CONTINUOUS
 70
0
 71
3
 72
22
 73
18
 74
0
 42
0.0000001
 43
0.0000001
 44
0.0000000001
 40
0.0
 40
0.0
 40
0.0
 40
0.0
 40
0.0312613082
 40
0.0625237891
 40
0.1250136122
 40
0.1874916679
 40
0.2499608777
 40
0.3124291049
 40
0.3749047264
 40
0.4373921591
 40
0.4998909988
 40
0.5623988682
 40
0.6249130036
 40
0.6874313772
 40
0.7499524602
 40
0.8749691236
 40
1.0
 40
1.0
 40
1.0
 40
1.0
 10
861.3565485864
 20
228.9601093796
 30
0.0
 10
861.3591330278
 20
226.1439911903
 30
0.0
 10
861.2168435877
 20
220.5102073869
 30
0.0
 10
860.3414860309
 20
209.2787986477
 30
0.0
 10
858.0139908673
 20
195.3580734013
 30
0.0
 10
852.9781115804
 20
179.180342857
 30
0.0
 10
845.5416736148
 20
163.9449870391
 30
0.0
 10
835.7794736428
 20
150.083562187
 30
0.0
 10
824.0019835452
 20
137.8982588439
 30
0.0
 10
810.6460391299
 20
127.4855565119
 30
0.0
 10
796.1398046391
 20
118.7668924259
 30
0.0
 10
780.8302823559
 20
111.5703304281
 30
0.0
 10
764.971821359
 20
105.6976711434
 30
0.0
 10
748.7418812357
 20
100.9601553695
 30
0.0
 10
726.7718943906
 20
95.9396812474
 30
0.0
 10
698.8912201243
 20
91.7345344344
 30
0.0
 10
676.4159594479
 20
90.0153083223
 30
0.0
 10
665.1656233923
 20
89.4774812356
 30
0.0
  0
SPLINE
  5
213
100
AcDbEntity
  8
0
100
AcDbSpline
 62
7
  6
CONTINUOUS
 70
0
 71
3
 72
22
 73
18
 74
0
 42
0.0000001
 43
0.0000001
 44
0.0000000001
 40
0.0
 40
0.0
 40
0.0
 40
0.0
 40
0.125030742
 40
0.2500472818
 40
0.3125681923
 40
0.375086496
 40
0.437600544
 40
0.5001083917
 40
0.5626073464
 40
0.6250948034
 40
0.6875705024
 40
0.7500388524
 40
0.8125081719
 40
0.8749863438
 40
0.9374761758
 40
0.9687387315
 40
1.0
 40
1.0
 40
1.0
 40
1.0
 10
333.5474731947
 20
89.4774812661
 30
0.0
 10
322.2971486467
 20
90.0152929596
 30
0.0
 10
299.8219126804
 20
91.7345250323
 30
0.0
 10
271.9412696155
 20
95.9396312922
 30
0.0
 10
249.9713287606
 20
100.960156093
 30
0.0
 10
233.7414098901
 20
105.6976349098
 30
0.0
 10
217.8829604379
 20
111.5702798773
 30
0.0
 10
202.5734301945
 20
118.7668243528
 30
0.0
 10
188.0671748568
 20
127.4854753172
 30
0.0
 10
174.7112111309
 20
137.8981835656
 30
0.0
 10
162.9336852643
 20
150.0834801798
 30
0.0
 10
153.1714624178
 20
163.9449243227
 30
0.0
 10
145.7350040296
 20
179.1803043362
 30
0.0
 10
140.6991052176
 20
195.3580514347
 30
0.0
 10
138.3716119741
 20
209.2787954469
 30
0.0
 10
137.496253826
 20
220.510207861
 30
0.0
 10
137.3539631828
 20
226.1439947914
 30
0.0
 10
137.3565485864
 20
228.9601093796
 30
0.0
  0
SPLINE
  5
214
100
AcDbEntity
  8
0
100
AcDbSpline
 62
7
  6
CONTINUOUS
 70
0
 71
3
 72
16
 73
12
 74
0
 42
0.0000001
 43
0.0000001
 44
0.0000000001
 40
0.0
 40
0.0
 40
0.0
 40
0.0
 40
0.1250473447
 40
0.2500930647
 40
0.3751338977
 40
0.5001624105
 40
0.6251656436
 40
0.7501219069
 40
0.874998082
 40
0.9375021587
 40
1.0
 40
1.0
 40
1.0
 40
1.0
 10
456.3934825005
 20
555.5
 30
0.0
 10
460.4697301288
 20
555.5008192856
 30
0.0
 10
468.6234567052
 20
555.342416623
 30
0.0
 10
480.8305224752
 20
554.5357210217
 30
0.0
 10
492.9731538153
 20
553.0237477757
 30
0.0
 10
504.9763608581
 20
550.6270525606
 30
0.0
 10
516.7052264696
 20
547.0981715613
 30
0.0
 10
527.906721511
 20
542.117630665
 30
0.0
 10
536.4369087538
 20
536.4261767591
 30
0.0
 10
542.393749462
 20
530.8473367595
 30
0.0
 10
545.0197954337
 20
527.7154374401
 30
0.0
 10
546.2297064472
 20
526.0763423928
 30
0.0
  0
SPLINE
  5
215
100
AcDbEntity
  8
0
100
AcDbSpline
 62
7
  6
CONTINUOUS
 70
0
 71
3
 72
19
 73
15
 74
0
 42
0.0000001
 43
0.0000001
 44
0.0000000001
 40
0.0
 40
0.0
 40
0.0
 40
0.0
 40
0.0625299154
 40
0.1250516269
 40
0.1875639794
 40
0.2500654972
 40
0.3125583782
 40
0.3750489196
 40
0.4375448018
 40
0.5000508347
 40
0.6249226875
 40
0.7499053866
 40
0.8749402969
 40
1.0
 40
1.0
 40
1.0
 40
1.0
 10
137.3565485864
 20
491.6453088118
 30
0.0
 10
137.353935242
 20
494.170400812
 30
0.0
 10
137.5565648724
 20
499.2235247856
 30
0.0
 10
138.5646098758
 20
506.7431583732
 30
0.0
 10
140.4089183606
 20
514.1075483572
 30
0.0
 10
143.1973193544
 20
521.173626472
 30
0.0
 10
146.9896506366
 20
527.7603343035
 30
0.0
 10
151.754063892
 20
533.68329116
 30
0.0
 10
157.362289935
 20
538.8112747856
 30
0.0
 10
165.7113181303
 20
544.5273237997
 30
0.0
 10
177.3420030787
 20
549.6738088916
 30
0.0
 10
192.081633611
 20
553.3256237807
 30
0.0
 10
207.1428896713
 20
555.1639681539
 30
0.0
 10
217.247476851
 20
555.5017990283
 30
0.0
 10
222.2976580766
 20
555.5
 30
0.0
  0
ENDSEC
  0
SECTION
  2
OBJECTS
  0
DICTIONARY
  5
C
100
AcDbDictionary
280
0
281
1
  3
ACAD_GROUP
350
D
  3
ACAD_MLINESTYLE
350
17
  3
ACAD_LAYOUT
350
1A
  3
ACAD_PLOTSETTINGS
350
19
  3
ACAD_PLOTSTYLENAME
350
E
  0
DICTIONARY
  5
D
102
{ACAD_REACTORS
330
C
102
}
100
AcDbDictionary
280
0
281
1
  0
ACDBDICTIONARYWDFLT
  5
E
102
{ACAD_REACTORS
330
C
102
}
100
AcDbDictionary
281
1
  3
Normal
350
F
100
AcDbDictionaryWithDefault
340
F
  0
DICTIONARY
  5
17
102
{ACAD_REACTORS
330
C
102
}
100
AcDbDictionary
280
0
281
1
  3
Standard
350
18
  0
DICTIONARY
  5
19
102
{ACAD_REACTORS
330
C
102
}
100
AcDbDictionary
281
1
  0
DICTIONARY
  5
1A
102
{ACAD_REACTORS
330
C
102
}
100
AcDbDictionary
281
1
  3
Model
350
216
  3
Layout1
350
217
  0
ACDBPLACEHOLDER
  5
F
102
{ACAD_REACTORS
330
E
102
}
  0
MLINESTYLE
  5
18
102
{ACAD_REACTORS
330
17
102
}
100
AcDbMlineStyle
  2
STANDARD
 70
0
  3

 62
256
 51
90.0
 52
90.0
 71
2
 49
0.5
 62
256
  6
BYLAYER
 49
-0.5
 62
256
  6
BYLAYER
  0
LAYOUT
  5
216
102
{ACAD_REACTORS
330
1A
102
}
100
AcDbPlotSettings
  1

  2
none_device
  4
ISO_A0_(1189.00_x_841.00_MM)
  6

 40
0.0
 41
0.0
 42
0.0
 43
0.0
 44
1189.0
 45
841.0
 46
0.0
 47
0.0
 48
0.0
 49
0.0
140
0.0
141
0.0
142
1.0
143
1.0
 70
1024
 72
1
 73
0
 74
0
  7

 75
0
147
1.0
148
0.0
149
0.0
100
AcDbLayout
  1
Model
 70
0
 71
0
 10
0.0
 20
0.0
 11
1189.0
 21
841.0
 12
0.0
 22
0.0
 32
0.0
 14
0.0
 24
0.0
 34
0.0
 15
0.0
 25
0.0
 35
0.0
146
0.0
 13
0.0
 23
0.0
 33
0.0
 16
1.0
 26
0.0
 36
0.0
 17
0.0
 27
1.0
 37
0.0
 76
0
330
208
345
0
346
0
  0
LAYOUT
  5
217
102
{ACAD_REACTORS
330
1A
102
}
100
AcDbPlotSettings
  1

  2
none_device
  4
ISO_A0_(1189.00_x_841.00_MM)
  6

 40
0.0
 41
0.0
 42
0.0
 43
0.0
 44
1189.0
 45
841.0
 46
0.0
 47
0.0
 48
0.0
 49
0.0
140
0.0
141
0.0
142
1.0
143
1.0
 70
0
 72
1
 73
0
 74
0
  7

 75
0
147
1.0
148
0.0
149
0.0
100
AcDbLayout
  1
Layout1
 70
0
 71
1
 10
0.0
 20
0.0
 11
1189.0
 21
841.0
 12
0.0
 22
0.0
 32
0.0
 14
0.0
 24
0.0
 34
0.0
 15
0.0
 25
0.0
 35
0.0
146
0.0
 13
0.0
 23
0.0
 33
0.0
 16
1.0
 26
0.0
 36
0.0
 17
0.0
 27
1.0
 37
0.0
 76
0
330
209
345
0
346
0
  0
ENDSEC
  0
EOF
